0
SECTION
2
HEADER
9
$INSUNITS
70
4
9
$ACADVER
1
AC1014
9
$HANDSEED
5
FFFF
0
ENDSEC
0
SECTION
2
TABLES
0
TABLE
2
VPORT
5
8
100
AcDbSymbolTable
0
ENDTAB
0
TABLE
2
LTYPE
5
5
100
AcDbSymbolTable
0
LTYPE
5
14
100
AcDbSymbolTableRecord
100
AcDbLinetypeTableRecord
2
BYBLOCK
70
0
0
LTYPE
5
15
100
AcDbSymbolTableRecord
100
AcDbLinetypeTableRecord
2
BYLAYER
70
0
0
ENDTAB
0
TABLE
2
LAYER
5
2
100
AcDbSymbolTable
70
2
0
LAYER
5
50
100
AcDbSymbolTableRecord
100
AcDbLayerTableRecord
2
0
70
0
6
CONTINUOUS
0
ENDTAB
0
TABLE
2
STYLE
5
3
100
AcDbSymbolTable
70
1
0
STYLE
5
11
100
AcDbSymbolTableRecord
100
AcDbTextStyleTableRecord
2
STANDARD
70
0
0
ENDTAB
0
TABLE
2
VIEW
5
6
100
AcDbSymbolTable
70
0
0
ENDTAB
0
TABLE
2
UCS
5
7
100
AcDbSymbolTable
70
0
0
ENDTAB
0
TABLE
2
APPID
5
9
100
AcDbSymbolTable
70
2
0
APPID
5
12
100
AcDbSymbolTableRecord
100
AcDbRegAppTableRecord
2
ACAD
70
0
0
ENDTAB
0
TABLE
2
DIMSTYLE
5
A
100
AcDbSymbolTable
70
1
0
ENDTAB
0
TABLE
2
BLOCK_RECORD
5
1
100
AcDbSymbolTable
70
1
0
BLOCK_RECORD
5
1F
100
AcDbSymbolTableRecord
100
AcDbBlockTableRecord
2
*MODEL_SPACE
0
BLOCK_RECORD
5
1B
100
AcDbSymbolTableRecord
100
AcDbBlockTableRecord
2
*PAPER_SPACE
0
ENDTAB
0
ENDSEC
0
SECTION
2
BLOCKS
0
BLOCK
5
20
100
AcDbEntity
100
AcDbBlockBegin
2
*MODEL_SPACE
0
ENDBLK
5
21
100
AcDbEntity
100
AcDbBlockEnd
0
BLOCK
5
1C
100
AcDbEntity
100
AcDbBlockBegin
2
*PAPER_SPACE
0
ENDBLK
5
1D
100
AcDbEntity
100
AcDbBlockEnd
0
ENDSEC
0
SECTION
2
ENTITIES
0
LINE
5
100
100
AcDbEntity
8
0
100
AcDbLine
10
-20
20
-27.527638409423471
30
0
11
-20
21
-31.527638409423471
31
0
0
LINE
5
101
100
AcDbEntity
8
0
100
AcDbLine
10
-20
20
-31.527638409423471
30
0
11
-13.233333333333333
21
-31.527638409423471
31
0
0
LINE
5
102
100
AcDbEntity
8
0
100
AcDbLine
10
-13.233333333333333
20
-31.527638409423471
30
0
11
-13.233333333333333
21
-27.527638409423471
31
0
0
LINE
5
103
100
AcDbEntity
8
0
100
AcDbLine
10
-13.233333333333333
20
-27.527638409423471
30
0
11
-6.7666666666666657
21
-27.527638409423471
31
0
0
LINE
5
104
100
AcDbEntity
8
0
100
AcDbLine
10
-6.7666666666666657
20
-27.527638409423471
30
0
11
-6.7666666666666657
21
-31.527638409423471
31
0
0
LINE
5
105
100
AcDbEntity
8
0
100
AcDbLine
10
-6.7666666666666657
20
-31.527638409423471
30
0
11
2.2204460492503131e-15
21
-31.527638409423471
31
0
0
LINE
5
106
100
AcDbEntity
8
0
100
AcDbLine
10
2.2204460492503131e-15
20
-31.527638409423471
30
0
11
0
21
-27.527638409423471
31
0
0
LINE
5
107
100
AcDbEntity
8
0
100
AcDbLine
10
0
20
-27.527638409423471
30
0
11
6.4666666666666668
21
-27.527638409423471
31
0
0
LINE
5
108
100
AcDbEntity
8
0
100
AcDbLine
10
6.4666666666666668
20
-27.527638409423471
30
0
11
6.4666666666666668
21
-31.527638409423471
31
0
0
LINE
5
109
100
AcDbEntity
8
0
100
AcDbLine
10
6.4666666666666668
20
-31.527638409423471
30
0
11
13.233333333333334
21
-31.527638409423471
31
0
0
LINE
5
110
100
AcDbEntity
8
0
100
AcDbLine
10
13.233333333333334
20
-31.527638409423471
30
0
11
13.233333333333334
21
-27.527638409423471
31
0
0
LINE
5
111
100
AcDbEntity
8
0
100
AcDbLine
10
23.804226065180618
20
-28.763706386923261
30
0
11
25.895241060451095
21
-22.328223959992719
31
0
0
LINE
5
112
100
AcDbEntity
8
0
100
AcDbLine
10
31.982875849637562
20
-3.5924105889781952
30
0
11
34.073890844908036
21
2.8430718379523445
31
0
0
LINE
5
113
100
AcDbEntity
8
0
100
AcDbLine
10
29.984565952679567
20
-9.7425760610201877
30
0
11
26.180339887498949
21
-8.5065080835203997
31
0
0
LINE
5
114
100
AcDbEntity
8
0
100
AcDbLine
10
20
20
-27.527638409423471
30
0
11
23.804226065180618
21
-28.763706386923261
31
0
0
LINE
5
115
100
AcDbEntity
8
0
100
AcDbLine
10
25.895241060451095
20
-22.328223959992719
30
0
11
22.091014995270477
21
-21.09215598249293
31
0
0
LINE
5
116
100
AcDbEntity
8
0
100
AcDbLine
10
34.073890844908036
20
2.8430718379523445
30
0
11
30.269664779727421
21
4.0791398154521339
31
0
0
LINE
5
117
100
AcDbEntity
8
0
100
AcDbLine
10
27.89355095740909
20
-16.178058487950729
30
0
11
29.984565952679567
21
-9.7425760610201877
31
0
0
LINE
5
118
100
AcDbEntity
8
0
100
AcDbLine
10
24.089324892228472
20
-14.941990510450939
30
0
11
27.89355095740909
21
-16.178058487950729
31
0
0
LINE
5
119
100
AcDbEntity
8
0
100
AcDbLine
10
28.178649784456944
20
-2.3563426114784058
30
0
11
31.982875849637562
21
-3.5924105889781952
31
0
0
LINE
5
120
100
AcDbEntity
8
0
100
AcDbLine
10
34.711820784167784
20
13.750690219882458
30
0
11
29.237472455563974
21
17.728037093728194
31
0
0
LINE
5
121
100
AcDbEntity
8
0
100
AcDbLine
10
13.299837666377513
20
29.307406563889913
30
0
11
7.8254893377737051
21
33.284753437735645
31
0
0
LINE
5
122
100
AcDbEntity
8
0
100
AcDbLine
10
18.531480896668839
20
25.506395265731921
30
0
11
16.180339887498949
21
22.270327288232128
31
0
0
LINE
5
123
100
AcDbEntity
8
0
100
AcDbLine
10
32.360679774997891
20
10.514622242382664
30
0
11
34.711820784167784
21
13.750690219882458
31
0
0
LINE
5
124
100
AcDbEntity
8
0
100
AcDbLine
10
29.237472455563974
20
17.728037093728194
30
0
11
26.886331446394081
21
14.4919691162284
31
0
0
LINE
5
125
100
AcDbEntity
8
0
100
AcDbLine
10
7.8254893377737051
20
33.284753437735645
30
0
11
5.4743483286038135
21
30.048685460235856
31
0
0
LINE
5
126
100
AcDbEntity
8
0
100
AcDbLine
10
24.005829225272652
20
21.529048391886185
30
0
11
18.531480896668839
21
25.506395265731921
31
0
0
LINE
5
127
100
AcDbEntity
8
0
100
AcDbLine
10
21.654688216102755
20
18.292980414386392
30
0
11
24.005829225272652
21
21.529048391886185
31
0
0
LINE
5
128
100
AcDbEntity
8
0
100
AcDbLine
10
10.948696657207622
20
26.071338586390119
30
0
11
13.299837666377513
21
29.307406563889913
31
0
0
LINE
5
129
100
AcDbEntity
8
0
100
AcDbLine
10
-2.3511410091698837
20
37.262100311581392
30
0
11
-7.8254893377736963
21
33.28475343773566
31
0
0
LINE
5
130
100
AcDbEntity
8
0
100
AcDbLine
10
-23.763124126960165
20
21.70538396757394
30
0
11
-29.237472455563982
21
17.728037093728204
31
0
0
LINE
5
131
100
AcDbEntity
8
0
100
AcDbLine
10
-18.531480896668839
20
25.506395265731932
30
0
11
-16.180339887498945
21
22.270327288232142
31
0
0
LINE
5
132
100
AcDbEntity
8
0
100
AcDbLine
10
6.6613381477509392e-15
20
34.026032334081606
30
0
11
-2.3511410091698837
21
37.262100311581392
31
0
0
LINE
5
133
100
AcDbEntity
8
0
100
AcDbLine
10
-7.8254893377736963
20
33.28475343773566
30
0
11
-5.4743483286038064
21
30.048685460235866
31
0
0
LINE
5
134
100
AcDbEntity
8
0
100
AcDbLine
10
-29.237472455563982
20
17.728037093728204
30
0
11
-26.886331446394092
21
14.491969116228415
31
0
0
LINE
5
135
100
AcDbEntity
8
0
100
AcDbLine
10
-13.057132568065025
20
29.483742139577668
30
0
11
-18.531480896668839
21
25.506395265731932
31
0
0
LINE
5
136
100
AcDbEntity
8
0
100
AcDbLine
10
-10.705991558895134
20
26.247674162077878
30
0
11
-13.057132568065025
21
29.483742139577668
31
0
0
LINE
5
137
100
AcDbEntity
8
0
100
AcDbLine
10
-21.411983117790278
20
18.469315990074151
30
0
11
-23.763124126960165
21
21.70538396757394
31
0
0
LINE
5
138
100
AcDbEntity
8
0
100
AcDbLine
10
-36.164905840178506
20
9.278554264882894
30
0
11
-34.073890844908036
21
2.8430718379523521
31
0
0
LINE
5
139
100
AcDbEntity
8
0
100
AcDbLine
10
-27.986256055721576
20
-15.892741533062173
30
0
11
-25.895241060451099
21
-22.328223959992712
31
0
0
LINE
5
140
100
AcDbEntity
8
0
100
AcDbLine
10
-29.984565952679567
20
-9.7425760610201824
30
0
11
-26.180339887498949
21
-8.5065080835203908
31
0
0
LINE
5
141
100
AcDbEntity
8
0
100
AcDbLine
10
-32.360679774997891
20
10.514622242382682
30
0
11
-36.164905840178506
21
9.278554264882894
31
0
0
LINE
5
142
100
AcDbEntity
8
0
100
AcDbLine
10
-34.073890844908036
20
2.8430718379523521
30
0
11
-30.269664779727417
21
4.079139815452141
31
0
0
LINE
5
143
100
AcDbEntity
8
0
100
AcDbLine
10
-25.895241060451099
20
-22.328223959992712
30
0
11
-22.091014995270481
21
-21.092155982492926
31
0
0
LINE
5
144
100
AcDbEntity
8
0
100
AcDbLine
10
-32.075580947950044
20
-3.3070936340896404
30
0
11
-29.984565952679567
21
-9.7425760610201824
31
0
0
LINE
5
145
100
AcDbEntity
8
0
100
AcDbLine
10
-28.271354882769426
20
-2.0710256565898524
30
0
11
-32.075580947950044
21
-3.3070936340896404
31
0
0
LINE
5
146
100
AcDbEntity
8
0
100
AcDbLine
10
-24.182029990540958
20
-14.656673555562385
30
0
11
-27.986256055721576
21
-15.892741533062173
31
0
0
LINE
5
147
100
AcDbEntity
8
0
100
AcDbLine
10
-13.233333333333333
20
-27.527638409423471
30
0
11
-6.7666666666666657
21
-27.527638409423471
31
0
0
LINE
5
148
100
AcDbEntity
8
0
100
AcDbLine
10
0
20
-27.527638409423471
30
0
11
6.4666666666666668
21
-27.527638409423471
31
0
0
LINE
5
149
100
AcDbEntity
8
0
100
AcDbLine
10
13.233333333333334
20
-27.527638409423471
30
0
11
19.999999999999996
21
-27.527638409423471
31
0
0
LINE
5
150
100
AcDbEntity
8
0
100
AcDbLine
10
22.091014995270477
20
-21.09215598249293
30
0
11
24.089324892228472
21
-14.941990510450939
31
0
0
LINE
5
151
100
AcDbEntity
8
0
100
AcDbLine
10
26.180339887498949
20
-8.5065080835203997
30
0
11
28.178649784456944
21
-2.3563426114784058
31
0
0
LINE
5
152
100
AcDbEntity
8
0
100
AcDbLine
10
30.269664779727421
20
4.0791398154521339
30
0
11
32.360679774997891
21
10.514622242382671
31
0
0
LINE
5
153
100
AcDbEntity
8
0
100
AcDbLine
10
26.886331446394081
20
14.4919691162284
30
0
11
21.654688216102755
21
18.292980414386392
31
0
0
LINE
5
154
100
AcDbEntity
8
0
100
AcDbLine
10
16.180339887498949
20
22.270327288232128
30
0
11
10.948696657207622
21
26.071338586390119
31
0
0
LINE
5
155
100
AcDbEntity
8
0
100
AcDbLine
10
5.4743483286038135
20
30.048685460235856
30
0
11
-5.5511151231257827e-15
21
34.026032334081592
31
0
0
LINE
5
156
100
AcDbEntity
8
0
100
AcDbLine
10
-5.4743483286038064
20
30.048685460235866
30
0
11
-10.705991558895134
21
26.247674162077878
31
0
0
LINE
5
157
100
AcDbEntity
8
0
100
AcDbLine
10
-16.180339887498945
20
22.270327288232142
30
0
11
-21.411983117790278
21
18.469315990074151
31
0
0
LINE
5
158
100
AcDbEntity
8
0
100
AcDbLine
10
-26.886331446394092
20
14.491969116228415
30
0
11
-32.360679774997891
21
10.514622242382668
31
0
0
LINE
5
159
100
AcDbEntity
8
0
100
AcDbLine
10
-30.269664779727417
20
4.079139815452141
30
0
11
-28.271354882769426
21
-2.0710256565898524
31
0
0
LINE
5
160
100
AcDbEntity
8
0
100
AcDbLine
10
-26.180339887498949
20
-8.5065080835203908
30
0
11
-24.182029990540958
21
-14.656673555562385
31
0
0
LINE
5
161
100
AcDbEntity
8
0
100
AcDbLine
10
-22.091014995270481
20
-21.092155982492926
30
0
11
-20
21
-27.527638409423471
31
0
0
ENDSEC
0
SECTION
2
OBJECTS
0
DICTIONARY
5
C
100
AcDbDictionary
3
ACAD_GROUP
350
D
3
ACAD_MLINESTYLE
350
17
0
DICTIONARY
5
D
100
AcDbDictionary
0
DICTIONARY
5
1A
330
C
100
AcDbDictionary
0
DICTIONARY
5
17
100
AcDbDictionary
0
ENDSEC
0
EOF
